Перейти к содержимому

Сервис обмена электронных валют


Guitar

#11 admin

admin
  • Пользователь PRO
  • 5 272 сообщений
  • Репутация: 54
0

Отправлено 12 Июль 2009 - 18:47

Евгений, тошнит уже от Цоя, пытаюсь учить что-то "экзотическое" и немного посложнее, типа Nickelback, 3 Doors Down, Scorpions, HIM :)
  • 0

Сколько лет прошло, а ссылки всё ещё лучше покупать тут



#12 Евгений

Евгений
  • Пользователь
  • 481 сообщений
  • Репутация: 0

Отправлено 12 Июль 2009 - 18:54

мне тоже цой не особо нравится, но его играть куда проще тех что Вы назвали :)
  • 0

#13 admin

admin
  • Пользователь PRO
  • 5 272 сообщений
  • Репутация: 54

Отправлено 12 Июль 2009 - 18:59

Да из тех что я назвал нет ничего особо сложного, там обычно перебор, который нужно просто заучить :)
  • 0

Сколько лет прошло, а ссылки всё ещё лучше покупать тут



#14 Евгений

Евгений
  • Пользователь
  • 481 сообщений
  • Репутация: 0

Отправлено 12 Июль 2009 - 19:06

вот как вот такое играть?:) тут нужно минимум шесть пальцев на правой руке))

---|--2--|--2--|--3--|--3--|--2--|--2--|--0--|--0--|--0--|--0--|--------------
---|--3--|--3--|--3--|--3--|--3--|--3--|--0--|--0--|--0--|--0--|--------------
-1-|--4--|--4--|--5--|--5--|--2--|--2--|--2--|--2--|--2--|--2--|--------------
-2-|--4--|--4--|--5--|--5--|--0--|--0--|--2--|--2--|--2--|--2--|--------------
-2-|--2--|--2--|--3--|--3--|-----|-----|--0--|--0--|--0--|--0--|--------------
-0-|--2--|--2--|--3--|--3--|-----|-----|-----|-----|-----|-----|--------------
Bm/F# Bm/F# Cadd9 Cadd9 D D A A A A


я пока только такие переборы играю :)

Em C Am H7
Дедушка мазай проснулся рано утром,
Зайчики кричат: "Дедушка, спаси!"
Дедушка мазай собрался потихоньку
И на лодочке поплыл спасать зайчат!

Em C Am H7
Раз зайчик, два зайчик, три зайчик в лодочку,
Раз зайчик, два зайчик, три на сковородочку,
Раз зайчик, два зайчик, три зайчик в лодочку,
Раз зайчик, два зайчик, три на сковородочку,

Лодку просмолил, весла заточил,
Достал свой карабин, зайчат спасать поплыл
Патроны зарядил, морковкой подманил,
И по одному зайчат переловил

Раз зайчик, два зайчик, три зайчик в баночку
Раз зайчик, два зайчик, новая ушаночка
Раз зайчик, два зайчик, три зайчик в баночку
Раз зайчик, два зайчик, новая ушаночка

И вот пришла весна, и зайцы вновь кричат,
И снова дед мазай, и снова, сука, рад
И знает дед мазай, что зайцы жить хотят,
И тогда решил он с зайцев денег снять

Раз зайчик, два зайчик, три зайчик в лодочку
Раз доллар, два доллар, новая моторочка
Раз зайчик, два зайчик, три зайчик в лодочку
Раз доллар, два доллар, новая моторочка

У зайцев денег нет, но зайцы жить хотят,
И тогда решили деде затоптать
Взяли по бревну, и пошли к нему
(тут игра останавливается, и произносится просто фраза)
... мы зайцы санитары леса!!!

Раз в морду два в ухо, погоди мазаюшка
Раз в морду, два в пузо зайцы санитарушки
Раз в морду два в ухо, погоди мазаюшка
Раз в морду, два в пузо зайцы санитарушки



играется быстрым перебором
-----------------------------------
-----------------------------------
--2-------3-------0-------2--------
----2---2---2---2---2---2---0---0--
------1-------1-------0-------0----
-----------------------------------


  • 0

#15 admin

admin
  • Пользователь PRO
  • 5 272 сообщений
  • Репутация: 54

Отправлено 12 Июль 2009 - 20:36

вот как вот такое играть?:) тут нужно минимум шесть пальцев на правой руке))

На правой руке тут и одного достаточно))) А вообще это элементарно играется, просто барре нужно зажимать и всё :)

---|--2--|--2--|--3--|--3--|--2--|--2--|--0--|--0--|--0--|--0--|--------------
---|--3--|--3--|--3--|--3--|--3--|--3--|--0--|--0--|--0--|--0--|--------------
-1-|--4--|--4--|--5--|--5--|--2--|--2--|--2--|--2--|--2--|--2--|--------------
-2-|--4--|--4--|--5--|--5--|--0--|--0--|--2--|--2--|--2--|--2--|--------------
-2-|--2--|--2--|--3--|--3--|-----|-----|--0--|--0--|--0--|--0--|--------------
-0-|--2--|--2--|--3--|--3--|-----|-----|-----|-----|-----|-----|--------------

Бери гитару в руки и пробуй :) Указательным пальцем зажимай все струны на 2-м ладу, средним пальцем зажимаешь на третем ладу вторую струну, безымянным 3-ю струну на 4-м ладу, мизинцем 4-ю струну на 4-м ладу. Ну а дальше бой как в песне :) Сложного ничего нет, по-началу может так только показаться :)

З.Ы. Использованные материалы для поста: http://ru.wikipedia.org/wiki/Палец :)
  • 0

Сколько лет прошло, а ссылки всё ещё лучше покупать тут



#16 Евгений

Евгений
  • Пользователь
  • 481 сообщений
  • Репутация: 0

Отправлено 12 Июль 2009 - 20:50

Бери гитару в руки и пробуй Указательным пальцем зажимай все струны на 2-м ладу, средним пальцем зажимаешь на третем ладу вторую струну, безымянным 3-ю струну на 4-м ладу, мизинцем 4-ю струну на 4-м ладу. Ну а дальше бой как в песне Сложного ничего нет, по-началу может так только показаться

камасутра на пальцах xD спасибо) буду тренироваться, пока не получается струны зажимать чтоб звучали))

З.Ы. Использованные материалы для поста: http://ru.wikipedia.org/wiki/Палец

:) :) :)
  • 0

#17 admin

admin
  • Пользователь PRO
  • 5 272 сообщений
  • Репутация: 54

Отправлено 12 Июль 2009 - 20:53

Евгений, Попроси кого-то чтобы все струны одним пальцем зажали, а ты остальные три. Будет звучать :) А вообще тут только практиковаться нужно, без барре никуда :)
  • 0

Сколько лет прошло, а ссылки всё ещё лучше покупать тут




Оформление форума – IPBSkins.ru