Перейти к содержимому

Реферальная программа Мегаплана

Партнерская программа Kredov

Guitar

#1 Banderas

Banderas
  • Пользователь
  • 1 168 сообщений
  • Репутация: 1
0

Отправлено 26 Апрель 2009 - 23:00

Думаю что все знают, что у программистов может развиться болезнь, последствиями которой может быть боли в запястьях и даже онемение пальцев. Для разминки, думаю, кроме тренажера, подходит ваша гитара или гитара вашего друга, которую вы уже пол года как собираетесь её отдать прежнему хозяину)))
Я лично часто делаю перерывы когда работаю за комютером, и эти перерывы заполняю звоном гитары. Хочу поделится песенками, которые мне нравятся играть, и они хороши разминают руки. Буду выкладывать по мере выучивания мной новых песен. Кто хочет - может присоединиться. Желательно добавлять комментарии к своему "аттачу".

Песенка хоть и матерная, но хорошо разминает пальцы и кисти - ибо играется она боем и с 3/4 приемами барре.

Чикисты - береты

Hm G
А мы береты на лоб надвинем,
Em F#
И автоматы удобней сдвинем
Hm G
И с улыбкою весёлой
Em F#
Мы будем жечь чужие сёла

Припев:
А мы по локоть да закатаем рукова
А мы чикаго, расх*ярим на дрова
Мы будем водку жрать, мы будем баб *бать
А потому что нам на совесть,совесть наплевать

Не берет ,верталёт
И стрекочет пулемёт
Это взвод чекистов роты
Пролетает над пихотой

Припев

Гром гремит и даже бес
Быстро сваливает в лес
Это руки блестят от пота
У парней,чекистов роты

Припев

Негры- негры ,негритосы
Залезайте на какосы
Это взвод чекистов роты
Вышел в джунгли на охоту

Припев

И пизд*ц тому в двойне
Кто конец - сказал войне
Яб на тех,на тех уродов
Яб на них ,чекистов роты.

А мы по локоть да закатаем рукова
А мы чикаго, расх*ярим на дрова
Мы будем водку жрать ,мы будем баб *бать
А потому что нам на совесть,совесть наплевать!!!


Если будет время и настроен микрофон, то выложу свою запись ))))

 

 

  • 0


#2 admin

admin
  • Пользователь PRO
  • 5 272 сообщений
  • Репутация: 54

Отправлено 26 Апрель 2009 - 23:08

Хорошая тема, респект автору! :D
Я вот недавно выучил:

Limp Bizkit — Behind Blue Eyes
---------0-------|---------0-------|---------0-------|---------0-------|------
-----------0-----|-----------3-----|-----3-----3---3-|-----3-----3---3-|------
-------0-----0---|-------0-----0---|---2---2-----2---|---2---2-----2---|------
-----2-----------|-----0---------0-|-0---------------|-0---------------|---2--
---2-----------2-|---2-------------|-----------------|-----------------|-3----
-0---------------|-3---------------|-----------------|-----------------|------
Intro:

-----0-------|---------0-------|---------0-------|---------0-------|----------
-3-----3---3-|-----3-----3---3-|-----0-----0---0-|-----0-----0---0-|----------
-------------|-----------------|-----------------|-----------------|----------
---2-----2---|---2---2-----2---|---2---2-----2---|---2---2-----2---|----------
-------------|-3---------------|-0---------------|-0---------------|----------
-------------|-----------------|-----------------|-----------------|----------


---------0-------|---------0-------|---------0-------|---------0-------|------
-----------0-----|-----------3-----|-----3-----3---3-|-----3-----3---3-|------
-------0-----0---|-------0-----0---|---2---2-----2---|---2---2-----2---|------
-----2-----------|-----0---------0-|-0---------------|-0---------------|---2--
---2-----------2-|---2-------------|-----------------|-----------------|-3----
-0---------------|-3---------------|-----------------|-----------------|------
Verse 1:

-----0-------|---------0-------|-----------------|-----------------|----------
-3-----3---3-|-----3-----3-----|-----------------|-----------------|----------
-------------|---------------22|-2---4-2---------|-----------------|----------
---2-----2---|---2---2-----2-22|-2---2-2---------|-----------------|----------
-------------|-3-------------00|-0---0-0---------|-----------------|----------
-------------|-----------------|-----------------|-----------------|----------
(2x)

-------|--x--|--2--|--3--|--3--|--3--|--2--|-----------------|----------------
-------|--3--|--3--|--3--|--3--|--3--|--3--|-----------------|----------------
-------|--0--|--2--|--0--|--0--|--0--|--2--|-1-----111-2---1-|---1---2-2-1----
-------|--2--|--0--|--0--|--0--|--2--|--0--|-2-----222-2---2-|---2---2-2-2----
-------|--3--|-----|--2--|--2--|--3--|-----|-2-----222-2---2-|---2---2-2-2----
-------|-----|-----|--3--|--3--|-----|-----|-0-----000-0---0-|---0---0-0-0----
Chorus:Cadd9 D G G Cadd9 D

---|--2--|--2--|--3--|--3--|--2--|--2--|--0--|--0--|--0--|--0--|--------------
---|--3--|--3--|--3--|--3--|--3--|--3--|--0--|--0--|--0--|--0--|--------------
-1-|--4--|--4--|--5--|--5--|--2--|--2--|--2--|--2--|--2--|--2--|--------------
-2-|--4--|--4--|--5--|--5--|--0--|--0--|--2--|--2--|--2--|--2--|--------------
-2-|--2--|--2--|--3--|--3--|-----|-----|--0--|--0--|--0--|--0--|--------------
-0-|--2--|--2--|--3--|--3--|-----|-----|-----|-----|-----|-----|--------------
Bm/F# Bm/F# Cadd9 Cadd9 D D A A A A

---------0-------|---------0-------|---------0-------|---------0-------|------
-----------0-----|-----------3-----|-----3-----3---3-|-----3-----3---3-|------
-------0-----0---|-------0-----0---|---2---2-----2---|---2---2-----2---|------
-----2-----------|-----0---------0-|-0---------------|-0---------------|---2--
---2-----------2-|---2-------------|-----------------|-----------------|-3----
-0---------------|-3---------------|-----------------|-----------------|------
Verse 2:

-----0-------|---------0-------|---------0-------|---------0-------|----------
-3-----3---3-|-----3-----3---3-|-----0-----0---0-|-----0---------0-|----------
-------------|-----------------|-----------------|-----------------|----------
---2-----2---|---2---2-----2---|---2---2-----2---|---2---2-----2---|----------
-------------|-3---------------|-0---------------|-0---------------|----------
-------------|-----------------|-----------------|-----------------|----------
(2x)

-------|--3--|--2--|--3--|--3--|--3--|--2--|-----------------|----------------
-------|--3--|--3--|--3--|--3--|--3--|--3--|-----------------|----------------
-------|--0--|--2--|--0--|--0--|--0--|--2--|-1-----111-2---1-|---1---2-2-1----
-------|--2--|--0--|--0--|--0--|--2--|--0--|-2-----222-2---2-|---2---2-2-2----
-------|--3--|-----|--2--|--2--|--3--|-----|-0-----222-2---2-|---2---2-2-2----
-------|-----|-----|--3--|--3--|-----|-----|-0-----000-0---0-|---0---0-0-0----
Chorus:Cadd9 D G G Cadd9 D

---|--2--|--2--|--3--|--3--|--2--|--2--|--0--|--0--|--0--|--0--|--------------
---|--3--|--3--|--3--|--3--|--3--|--3--|--0--|--0--|--0--|--0--|--------------
-1-|--4--|--4--|--5--|--5--|--2--|--2--|--2--|--2--|--2--|--2--|--------------
-2-|--4--|--4--|--5--|--5--|--0--|--0--|--2--|--2--|--2--|--2--|--------------
-2-|--2--|--2--|--3--|--3--|-----|-----|--0--|--0--|--0--|--0--|--------------
-0-|--2--|--2--|--3--|--3--|-----|-----|-----|-----|-----|-----|--------------
Bm/F# Bm/F# Cadd9 Cadd9 D D A A A A

---------0-------|---------0-------|---------0-------|---------0-------|------
-----------0-----|-----------3-----|-----3-----3---3-|-----3-----3---3-|------
-------0-----0---|-------0-----0---|---2---2-----2---|---2---2-----2---|------
-----2-----------|-----0---------0-|-0---------------|-0---------------|---2--
---2-----------2-|---2-------------|-----------------|-----------------|-3----
-0---------------|-3---------------|-----------------|-----------------|------
Interlude:

-----0-------|---------0-------|---------0-------|---------0-------|----------
-3-----3---3-|-----3-----3---3-|-----0-----0---0-|-----0-----0---0-|----------
-------------|-----------------|-----------------|-----------------|----------
---2-----2---|---2---2-----2---|---2---2-----2---|---2---2-----2---|----------
-------------|-3---------------|-0---------------|-0---------------|----------
-------------|-----------------|-----------------|-----------------|----------
(2x)

---------0-------|---------0-------|---------0-------|---------0-------|------
-----------0-----|-----------3-----|-----3-----3---3-|-----3-----3---3-|------
-------0-----0---|-------0-----0---|---2---3-----2---|---2---2-----2---|------
-----2-----------|-----0---------0-|-0---------------|-0---------------|---2--
---2-----------2-|---2-------------|-----------------|-----------------|-3----
-0---------------|-3---------------|-----------------|-----------------|------
Verse 3:

-----0-------|---------0-------|---------0-------|---------0-------|----------
-3-----3---3-|-----3-----3---3-|-----0-----0---0-|-----0-----0---0-|----------
-------------|-----------------|-----------------|-----------------|----------
---2-----2---|---2---2-----2---|---2---2-----2---|---2---2-----2---|----------
-------------|-3---------------|-0---------------|-0---------------|----------
-------------|-----------------|-----------------|-----------------|----------
(2x)

-------|--3--|--2--|--3--|--3--|--3--|--2--|-----------------|----------------
-------|--3--|--3--|--3--|--3--|--3--|--3--|-----------------|----------------
-------|--0--|--2--|--0--|--0--|--0--|--2--|-1-----111-2---1-|---1---2-2-1----
-------|--2--|--0--|--0--|--0--|--2--|--0--|-2-----222-2---2-|---2---2-2-2----
-------|--3--|-----|--2--|--2--|--3--|-----|-2-----222-2---2-|---2---2-2-2----
-------|-----|-----|--3--|--3--|-----|-----|-0-----000-0---0-|---0---0-0-0----
Chorus:Cadd9 D G G Cadd9 D

---|--2--|--2--|--3--|--3--|--2--|--2--|--0--|--0--|--0--|--0--|--------------
---|--3--|--3--|--3--|--3--|--3--|--3--|--0--|--0--|--0--|--0--|--------------
-1-|--4--|--4--|--5--|--5--|--2--|--2--|--2--|--2--|--2--|--2--|--------------
-2-|--4--|--4--|--5--|--5--|--0--|--0--|--2--|--2--|--2--|--2--|--------------
-2-|--2--|--2--|--3--|--3--|-----|-----|--0--|--0--|--0--|--0--|--------------
-0-|--2--|--2--|--3--|--3--|-----|-----|-----|-----|-----|-----|--------------
Bm/F# Bm/F# Cadd9 Cadd9 D D A A A A

---------0-------|---------0-------|---------0-------|---------0-------|------
-----------0-----|-----------3-----|-----3-----3---3-|-----3-----3---3-|------
-------0-----0---|-------0-----0---|---2---2-----2---|---2---2-----2---|------
-----2-----------|-----0---------0-|-0---------------|-0---------------|---2--
---2-----------2-|---2-------------|-----------------|-----------------|-3----
-0---------------|-3---------------|-----------------|-----------------|------
Outro:

-----0-------|---------0-------|-----------------|-----------------|----------
-3-----3---3-|-----3-----3-----|-----------------|-----------------|----------
-------------|---------------22|-2---4-2---------|-----------------|----------
---2-----2---|---2---2-----2-22|-2---2-2---------|-----------------|----------
-------------|-3-------------00|-0---0-0---------|-----------------|----------
-------------|-----------------|-----------------|-----------------|----------


  • 0

Сколько лет прошло, а ссылки всё ещё лучше покупать тут



#3 admin

admin
  • Пользователь PRO
  • 5 272 сообщений
  • Репутация: 54

Отправлено 26 Апрель 2009 - 23:09

Хочу давно уже выучить ещё одну, но как-т руки не доходят...

Дождь стучал по крышам...

(1) <Am Dm>
Дождь стучал по крышам
> G Am
Словно мне на зло
> Am Dm
Ты ко мне не вышла
> G Am
Сделала падло
> Am Dm
Целый день стоял я
> G Am
Под окном и мок
> Am Dm
Но тыбя увидеть
> G Am
Всетаки не смог

> Am Dm
Припев: Ты не пришла и фиг с тобой
> G Am
Как будто нет такой другой
Мне не нужна любовь твоя
Найду другую я
При первой встрече вновь
Я разобью *лицо* в кровь
Чтоб не *крутила* ты мозги
Таким парням как мы

(2) Теперь я в этой жизни
Понял лишь одно,
Что любить девченок
Всем нам заподло
Ну а кто не верит
Тот большой мудак
Ведь любить девченок
Нам нельзя никак.

Припев: Теперь я буду выпивать и веселиться и гулять
И водку пить и все что есть
И отнимать у девок честь
По гроб я жизни буду мстить
Чтоб им счастливыми не быть


  • 0

Сколько лет прошло, а ссылки всё ещё лучше покупать тут



#4 Galeodor

Galeodor
  • Пользователь
  • 1 172 сообщений
  • Репутация: 2

Отправлено 27 Апрель 2009 - 15:22

а давайте не материться, и закрывать словечки то. :D
ща получите у меня оба.
  • 0

#5 Banderas

Banderas
    Topic Starter
  • Пользователь
  • 1 168 сообщений
  • Репутация: 1

Отправлено 27 Апрель 2009 - 15:55

НащальникЕ, мы больше нибудЕм так делать никагда... Нащальнике только не бей =)
2*admin* у тебя электрогитара?
  • 0


#6 admin

admin
  • Пользователь PRO
  • 5 272 сообщений
  • Репутация: 54

Отправлено 27 Апрель 2009 - 17:32

Акустика, на електрухе не пробовал никогда играть. Можно было бы купить, но играть нету где :D
  • 0

Сколько лет прошло, а ссылки всё ещё лучше покупать тут



#7 Galeodor

Galeodor
  • Пользователь
  • 1 172 сообщений
  • Репутация: 2

Отправлено 27 Апрель 2009 - 18:40

я серьезно. сегодня не потрете-обоим 10 выдам. будете знать.

UPD: я предупреждал.
  • 0

#8 admin

admin
  • Пользователь PRO
  • 5 272 сообщений
  • Репутация: 54

Отправлено 05 Июнь 2009 - 13:16

Нашёл песенку, звучит очень мелодично ;)

Аккорды 3 Doors Down - Here without you (табулатура)

Date: Thu, 4 Dec 2003 23:28:44 -0500
From: Tony Rinehart
Subject: 3/3_doors_down/here_without_you.tab

3 Doors Down - Here Without You

I noticed there was no tab file available for this song, only a chord
file.
For a song like this, however, you really do need tabs, not just chords.

CAPO FRET 1, STANDARD TUNING - ALL POSITIONS RELATIVE TO CAPO

Intro x1
Verse x3 *Intro*
Chorus x2
e|--------------------------------|--------------------------------| Verse x3
B|---------1-----0-----0---1------|-------------------------0------| Chorus x2
G|-------2---2-----2-----2---2----|---------------------0-----0----| Bridge
D|-----2-------2-----2------------|-------3-----------0---------0--| Chorus x4
A|-0---------------------------0--|---0h3---3-0--------------------| End Chord
E|-------------------------------3|-1-----------3-----------------3|
1 + a 2 e + a 3 e + a 4 e + a 1 e + a 2 e + e +
4 e + a
*Verse*
e|-----------------------------------|--------------------------------|
B|---------1-----0-----0---1-------|---------0-----1-----0---1/3----|
G|-------2---2-----2-----2---2----|-------0---0-----0-----0--------|
D|-----2-------2-----2---------2---|-----0-------0-----0------------|
A|-0-----------------------------0-|--------------------------------|
E|----------------------------------|-3------------------------------|
1 + a 2 e + a 3 e + a 4 e + a 1 + a 2 e + a 3 e + a 4

e|--------------------------------|--------------------------------|
B|---------1-----0-----0---1------|-------------------------0------|
G|-------2---2-----2-----2---2----|---------------------0-----0----|
D|-----2-------2-----2------------|-------3-----------0---------0--|
A|-0---------------------------0--|---0h3---3-0--------------------|
E|-------------------------------3|-1-----------3-----------------3|
1 + a 2 e + a 3 e + a 4 e + a 1 e + a 2 e + e + 4 e + a

*Chorus*
e|---------------0---------1p0----|---------------3-----1---0------|
B|---------3---------1---------3-1|---------0-------0-----------3--|
G|-------0---0---------0----------|-------0---0-------0---0---0---0|
D|-----2-------2---------2--------|-----0-------0------------------|
A|-3------------------------------|--------------------------------|
E|--------------------------------|-3------------------------------|
1 + a 2 e + a e + a 4 e + a 1 + a 2 e + a 3 e + a 4 e + a

e|--------------------------------|--------------------------------|
B|---------1-----3---1-----3p1----|-------------------------0------|
G|-------2---2-----------2-----2--|---------------------0-----0----|
D|-----2-------2-----------------2|-------3-----------0---0-----0--|
A|-0------------------------------|---0h3---3-0--------------------|
E|--------------------------------|-1-----------3-----------------3|
1 + a 2 e + a e a 4 e + a 1 e + a 2 e + e + a 4 e + a

ADG
*Bridge chords* am C G F am C G F F *End chord* -x022xx-


  • 0

Сколько лет прошло, а ссылки всё ещё лучше покупать тут



#9 Banderas

Banderas
    Topic Starter
  • Пользователь
  • 1 168 сообщений
  • Репутация: 1

Отправлено 08 Июнь 2009 - 22:40

Вот, о друге ;)
Am		   E7
Если друг оказался вдруг
			   Am
И не друг и не враг, а так...
	 A7	   Dm
Если сразу не разберешь,
G7			C	E7
Плох он или хорош, -
Am			 Dm6
Парня в горы тяни - рискни,
			  Am
Не бросай одного его,
					  Dm6
Пусть он в связке в одной с тобой -
E7				 Am
Там поймешь, кто такой.

Если парень в горах - не ах,
Если сразу раскис - и вниз,
Шаг ступил на ледник - и сник,
Оступился - и в крик,
Значит, рядом с тобой чужой,
Ты его не брани - гони:
Вверх таких не берут и тут
Про таких не поют.

Если ж он не скулил, не ныл,
Пусть он хмур был и зол, но шел,
А когда ты упал со скал,
Он стонал, но держал,
Если шел за тобой, как в бой,
На вершине стоял, хмельной,
Значит, как на себя самого,
Положись на него.

  • 0


#10 Евгений

Евгений
  • Пользователь
  • 481 сообщений
  • Репутация: 0

Отправлено 12 Июль 2009 - 18:04

Песни для тех кто только начинает играть на гитаре :) Т.е. на самых простых аккордах.
Если у кого то есть такие песни, то скидывайте тоже

Кино - Звезда по имени Солнце

Am
Белый снег, серый лед,
C
На растрескавшейся земле.
Dm
Одеялом лоскутным на ней -
G
Город в дорожной петле.
Am
А над городом плывут облака,
C
Закрывая небесный свет.
Dm
А над городом - желтый дым,
G
Городу две тысячи лет,
Dm
Прожитых под светом Звезды
Am
По имени Солнце...

И две тысячи лет - война,
Война без особых причин.
Война - дело молодых,
Лекарство против морщин.
Красная, красная кровь -
Через час уже просто земля,
Через два на ней цветы и трава,
Через три она снова жива
И согрета лучами Звезды
По имени Солнце...

И мы знаем, что так было всегда,
Что Судьбою больше любим,
Кто живет по законам другим
И кому умирать молодым.
Он не помнит слово "да" и слово "нет",
Он не помнит ни чинов, ни имен.
И способен дотянуться до звезд,
Не считая, что это сон,
И упасть, опаленным Звездой
По имени Солнце...

Играть боем: v^v*^v^v* (вниз, вверх, шлеп вниз, вверх, вниз, вверх, шлеп вниз)


Am Dm
На улице дождик на улице слякоть
E Am
А им все равно
Am Dm
Идут они вместе, один у них зонтик
E7 Am
Идут из кино

Маленькая девочка маленькому мальчику
Задает вопрос
Что такое небо, что такое солнышко
Что такое любовь

Am Dm
А Ты меня любишь? Ага...
G C
А ты со мной будешь? Ага...
Am Dm
Так будем вы вместе, так будем мы рядом,
E7 Am
с тобою всегда

А что сажет мама, а что скажет папа
Когда будем вмечте гулять
Они веть и так никуда не пускают
С тобой не пускают играть

Припев

Давай пока не кому
Не будем говорить
Пока не наступит такая минута
Когда можно будет любить

Припев


Ваше благородие, госпожа Разлука
Мы с тобой друзья давно
Вот какая штука
Письмецо в конверте
Погоди, не рви
е везет мне в смерти,
Повезет в любви

Ваше благородие, госпожа Чужбина
Жарко обнимала ты
Да только не любила
В ласковые сети
постой, не лови
не везет мне в смерти
Повезет в любви

Am E Am
Ваше благородие, госпожа Удача
С G
Для кого ты добрая
C
А кому иначе
Dm э
Девять граммов в сердце
G C .
Постой, не зови
Dm Am .
не везет мне в смерти .
E Am .
Повезет в любви.


Ваше благородие, госпожа Победа
Значит моя песенка
До конца не спета
Перестаньте, черти
Клясться на крови
не везет мне в смерти
Повезет в любви.


Сектор газа - Сельский кайф

Am Dm
Делать нечего в селе. Мы сидим на веселе.
E Am A7
Ты сказала: "Мож найдем самогон?"
Dm G C Am
На хера нам эта дрянь - на природу лучше глянь:
Dm E Am A7
Здесь в деревне кайфа целый вагон.
Dm G C Am
На хера нам эта дрянь - на природу лучше глянь:
Dm E Am
Здесь в деревне кайфа целый вагон.

Am G C Am
Нам спиртное ни к чему! Я отвечу, почему:
Am G C Am
Это удовольствие дорогое.
Am G C Am
Посмотри, в натуре, *ля - вот он мак и конопля.
Dm E Am
Кайфа море, а ты все про спиртное.

Заходи на огород - видишь, мак вон там растет.
Кроме мака нам не надо ничего.
Пропитаем соком бинт - видишь, прямо как стоит,
И в железной кружке сварим мы его.
Пропитаем соком бинт - видишь, прямо как стоит,
И в железной кружке сварим мы его.

Нам спиртное ни к чему! Я отвечу, почему:
Это удовольствие дорогое.
Посмотри, в натуре, *ля - вот он мак и конопля.
Кайфа море, а ты все про спиртное.

Мы добавим ангидрид: это нам не повредит.
Будет этот мир для нас сладкий сон.
Жахнем ханки на двоих. Кайф получишь через миг
И забудешь навсегда самогон.
Жахнем ханки на двоих. Кайф получишь через миг
И забудешь навсегда самогон.

Нам спиртное ни к чему! Я отвечу, почему:
Это удовольствие дорогое.
Посмотри, в натуре, блин - вот он мак и конопля.
Кайфа море, а ты все про спиртное.

играется боем: V^V*^ (вниз вверх шлеп вверх)


  • 0

robot

robot
  • Пользователь PRO
  • 2 652 сообщений
  • Репутация: 85


Оформление форума – IPBSkins.ru